[ Личные сообщения() · Новые сообщения · Участники · Правила · Поиск · Ленточный вариант · RSS ]
Страница 1 из 11
Модератор форума: Delirium 
Форум » Обмен » Аккорды, табулатуры, тексты песен, gtp » Табулатуры (---)
Табулатуры
metalmuzДата: Пятница, 25.07.2008, 00:24 | Сообщение # 1

Замечания: ±
Награды: 20
Статус: :-(

System Of A Down - Science

*= natural harmonic

Intro
|----------------------------------------------------------------------------------------------|
|---*----------------------------*------ -----------------------*---------------*------------*--|
|---5----------------------------5-----------------------------5---------------5-- ----------5--|
|-----0-0-000-0-0-000-00-000-00----0-0-000-0-0-000-0-0-000-00-----0-0-000-0-0----0-0-000-00----|
|------------------------- ---------------------------------------------------------------------|
|------------------------------------------------------------------- ---------------------------|

Intro Heavy
|---------------------------|-------------------------------|
|--------*-----*-----*------|------------------------3x-----|
|--------5-- ---5-----5------|---7---------------------------|
|----0-0---0-0---0-0----000-|---7---------------------------|
|------------------------- --|---5-0-0-0-0-0-0---------------|
|---------------------------|-----0-0-0-0-0-0---------------|
pm------------

Heavy continued
|------------------------------|
|------------------------------|
|------------------------------|
|------------------------------|
|- ---------7-8-10-8-7----------|
|-----8-10---------------------|

|------------------------------------------------|
|------------------- ----------------------2x-----|
|------------------------------------------------|
|---1-0-0-0-0-0-0-0-0-0-0-0-0-0-0-0-0------------|
|--- ---------------------------------------------|
|------------------------------------------------|

|------------------------------------- ----------------------|
|---------------------------------------------------------*-|
|--------------------------------------------------- ------5-|
|---1-0-0-0-0-0-0--1-0-0-0-0-0-0--1-0-0-1-0-0-1-0-0-1-0-0---|
|-----------------------------------------------------------|
|-- ---------------------------------------------------------|

Chorus
|-----------------------------------------|
|-----------------------------------------|
|-----------------------------------------|
|-- ---------------------------------------|
|----0--2--3-------------7-8-10-8-7-------|
|----0--2--3--------8-10------------------|

Interlude (palm mute)
|----------------------------------|
|----------------------------------|
|--------------------------5-------|
|---0--5-7--0-7-8---0--7 -8---8-7-8-|
|----------------------------------|
|-0-------0-------0----------------|

|----------------------|
|--------------------- -|
|----------------------|
|-3-3-5-3-2--2-2h3-2---|
|--------------------3-|
|----------------------|

|----------------------------- ---------------------------------------|
|--------------------------------------------------------------------|
|-0-2-3-0-2-2-22--0-2-5-3- 2-2-22--0-2-3-0-2-2-22-----0---------------|
|-------------------------------------------------33---3-2-2-2h3-2---|
|--------------------- ---------------------------------------------3-|
|--------------------------------------------------------------------|

|--------------- ----------------|
|-------------------------------|
|-0-2-3-0-2-2-23-0-2-2-23-0-2-2-|
|-------------------------------|
|--------------- ----------------|
|-------------------------------|

Outro
|------------------------------------------------------------|
|------------------------------------------------------------|
|-7------- ------9-------------10-----------------------------|
|-7-------------9-------------10-----------------------------|
|-5-555-555-555-7-777- 777-777--8-888-888-888------7-8-10-8-7-|
|--------------------------------------------8-10------------|
PM ----------- ----------- ----------

Deep Purple - Love Child

Проигрыш:
D|-------------------------5//7----5---------------|
A|-------3-----5-7-3---0--------------7----0-3-5-3-|
E|-5-----------------------------------------------|

A|-7//1

Проигрыш - 4 раза

F
D|-3-3-3-3-3-------3-3-3-3-
A|-3-3-3-3-3-------3-3-3-3-
E|-1-1-1-1-1-------1-1-1-1-
You can walk through fire

D|-3-3-3-3-3-------3-3-3-3-
A|-3-3-3-3-3-------3-3-3-3-
E|-1-1-1-1-1-------1-1-1-1-
Make the north wind blow

Squeeze ?n? tease me honey
When you shake your body

A|------2~------
You move my soul

Проигрыш - 2 раза

Let me be your lover
Won?t you let me be your child
Take me through your universe
Y?know that when you smile
You drive me wild

Проигрыш - 2 раза

D|-3--2--------------------------------
A|-------5--3---5----------------------
E|--------------------3----5-----------
Love child

D|-3--2--------------------------------
A|-------5--3---5----------------------
E|-------------------3--5--------------
Driving me wild

D|-3--2--------------------------------
A|-------5--3---5----------------------
E|--------------------3----5-----------
Love child

D|-3--2--------------------------------
A|-------5--3---5----------------------
E|--------------------3----------------
Always teasin? me
Проигрыш - 2 раза

You can ride your pony
Day dream in fairy tales
All I know is I need more
When I see you dance the seven veils

Проигрыш - 2 раза

Седующая тема играется 8 раз!
A9+
H|--------------------------------------------8-
G|--------------------------------------------6-
D|------7-----5-------5---5-7---- -- -7-----5---5-
A|-0-7-----7--------7----------0-7-----7------7-

Форум » Обмен » Аккорды, табулатуры, тексты песен, gtp » Табулатуры (---)
Страница 1 из 11
Поиск:

 

 

 
Для правообладателей | Copyright 2008-2011 | www.metalmuz.clan.su | Хостинг от uCoz
При использовании материалов с сайта, ссылка на www.metalmuz.clan.su обязательна!
Сайт предназначен для работы в Mozilla Firefox

Природе нужна твоя помощь! Стань сторонником Гринпис